ISO-10303-21;
HEADER;
/* Generated by software containing ST-Developer
 * from STEP Tools, Inc. (www.steptools.com) 
 */
/* OPTION: using custom renumber hook */

FILE_DESCRIPTION(
/* description */ ('STEP AP242',
'CAx-IF Rec.Pracs.---Representation and Presentation of Product Manufa
cturing Information (PMI)---4.0---2014-10-13',
'CAx-IF Rec.Pracs.---3D Tessellated Geometry---0.4---2014-09-14','2;1'),

/* implementation_level */ '2;1');

FILE_NAME(
/* name */ '685edbe034dd492f7b62d489',
/* time_stamp */ '2025-06-27T17:58:57Z',
/* author */ (''),
/* organization */ (''),
/* preprocessor_version */ 'ST-DEVELOPER v20',
/* originating_system */ 'ONSHAPE BY PTC INC, 1.200',
/* authorisation */ '  ');

FILE_SCHEMA (('AP242_MANAGED_MODEL_BASED_3D_ENGINEERING_MIM_LF { 1 0 10303 442 1 1 4 }'));
ENDSEC;

DATA;
#10=SHAPE_REPRESENTATION_RELATIONSHIP('','',#369,#11);
#11=ADVANCED_BREP_SHAPE_REPRESENTATION('',(#367),#595);
#12=CYLINDRICAL_SURFACE('',#394,0.00508);
#13=CYLINDRICAL_SURFACE('',#395,0.00508);
#14=CYLINDRICAL_SURFACE('',#396,0.00508);
#15=CYLINDRICAL_SURFACE('',#397,0.00508);
#16=CIRCLE('',#380,0.00508);
#17=CIRCLE('',#381,0.00508);
#18=CIRCLE('',#382,0.00508);
#19=CIRCLE('',#383,0.00508);
#20=CIRCLE('',#386,0.00508);
#21=CIRCLE('',#387,0.00508);
#22=CIRCLE('',#388,0.00508);
#23=CIRCLE('',#389,0.00508);
#24=ORIENTED_EDGE('',*,*,#120,.T.);
#25=ORIENTED_EDGE('',*,*,#121,.T.);
#26=ORIENTED_EDGE('',*,*,#122,.F.);
#27=ORIENTED_EDGE('',*,*,#123,.T.);
#28=ORIENTED_EDGE('',*,*,#124,.T.);
#29=ORIENTED_EDGE('',*,*,#125,.T.);
#30=ORIENTED_EDGE('',*,*,#126,.F.);
#31=ORIENTED_EDGE('',*,*,#127,.T.);
#32=ORIENTED_EDGE('',*,*,#128,.T.);
#33=ORIENTED_EDGE('',*,*,#129,.T.);
#34=ORIENTED_EDGE('',*,*,#130,.F.);
#35=ORIENTED_EDGE('',*,*,#131,.T.);
#36=ORIENTED_EDGE('',*,*,#132,.F.);
#37=ORIENTED_EDGE('',*,*,#133,.F.);
#38=ORIENTED_EDGE('',*,*,#134,.T.);
#39=ORIENTED_EDGE('',*,*,#135,.T.);
#40=ORIENTED_EDGE('',*,*,#136,.T.);
#41=ORIENTED_EDGE('',*,*,#137,.F.);
#42=ORIENTED_EDGE('',*,*,#138,.F.);
#43=ORIENTED_EDGE('',*,*,#133,.T.);
#44=ORIENTED_EDGE('',*,*,#139,.F.);
#45=ORIENTED_EDGE('',*,*,#140,.F.);
#46=ORIENTED_EDGE('',*,*,#141,.T.);
#47=ORIENTED_EDGE('',*,*,#137,.T.);
#48=ORIENTED_EDGE('',*,*,#142,.T.);
#49=ORIENTED_EDGE('',*,*,#135,.F.);
#50=ORIENTED_EDGE('',*,*,#143,.F.);
#51=ORIENTED_EDGE('',*,*,#140,.T.);
#52=ORIENTED_EDGE('',*,*,#144,.T.);
#53=ORIENTED_EDGE('',*,*,#145,.T.);
#54=ORIENTED_EDGE('',*,*,#146,.F.);
#55=ORIENTED_EDGE('',*,*,#147,.T.);
#56=ORIENTED_EDGE('',*,*,#132,.T.);
#57=ORIENTED_EDGE('',*,*,#142,.F.);
#58=ORIENTED_EDGE('',*,*,#139,.T.);
#59=ORIENTED_EDGE('',*,*,#136,.F.);
#60=ORIENTED_EDGE('',*,*,#146,.T.);
#61=ORIENTED_EDGE('',*,*,#148,.T.);
#62=ORIENTED_EDGE('',*,*,#128,.F.);
#63=ORIENTED_EDGE('',*,*,#149,.T.);
#64=ORIENTED_EDGE('',*,*,#124,.F.);
#65=ORIENTED_EDGE('',*,*,#150,.T.);
#66=ORIENTED_EDGE('',*,*,#120,.F.);
#67=ORIENTED_EDGE('',*,*,#151,.T.);
#68=ORIENTED_EDGE('',*,*,#152,.T.);
#69=ORIENTED_EDGE('',*,*,#153,.T.);
#70=ORIENTED_EDGE('',*,*,#154,.T.);
#71=ORIENTED_EDGE('',*,*,#155,.F.);
#72=ORIENTED_EDGE('',*,*,#134,.F.);
#73=ORIENTED_EDGE('',*,*,#138,.T.);
#74=ORIENTED_EDGE('',*,*,#141,.F.);
#75=ORIENTED_EDGE('',*,*,#143,.T.);
#76=ORIENTED_EDGE('',*,*,#156,.F.);
#77=ORIENTED_EDGE('',*,*,#157,.F.);
#78=ORIENTED_EDGE('',*,*,#158,.T.);
#79=ORIENTED_EDGE('',*,*,#159,.F.);
#80=ORIENTED_EDGE('',*,*,#130,.T.);
#81=ORIENTED_EDGE('',*,*,#160,.T.);
#82=ORIENTED_EDGE('',*,*,#144,.F.);
#83=ORIENTED_EDGE('',*,*,#161,.T.);
#84=ORIENTED_EDGE('',*,*,#122,.T.);
#85=ORIENTED_EDGE('',*,*,#162,.T.);
#86=ORIENTED_EDGE('',*,*,#126,.T.);
#87=ORIENTED_EDGE('',*,*,#163,.T.);
#88=ORIENTED_EDGE('',*,*,#156,.T.);
#89=ORIENTED_EDGE('',*,*,#164,.F.);
#90=ORIENTED_EDGE('',*,*,#153,.F.);
#91=ORIENTED_EDGE('',*,*,#165,.T.);
#92=ORIENTED_EDGE('',*,*,#159,.T.);
#93=ORIENTED_EDGE('',*,*,#166,.F.);
#94=ORIENTED_EDGE('',*,*,#154,.F.);
#95=ORIENTED_EDGE('',*,*,#164,.T.);
#96=ORIENTED_EDGE('',*,*,#158,.F.);
#97=ORIENTED_EDGE('',*,*,#167,.F.);
#98=ORIENTED_EDGE('',*,*,#155,.T.);
#99=ORIENTED_EDGE('',*,*,#166,.T.);
#100=ORIENTED_EDGE('',*,*,#157,.T.);
#101=ORIENTED_EDGE('',*,*,#165,.F.);
#102=ORIENTED_EDGE('',*,*,#152,.F.);
#103=ORIENTED_EDGE('',*,*,#167,.T.);
#104=ORIENTED_EDGE('',*,*,#160,.F.);
#105=ORIENTED_EDGE('',*,*,#129,.F.);
#106=ORIENTED_EDGE('',*,*,#148,.F.);
#107=ORIENTED_EDGE('',*,*,#145,.F.);
#108=ORIENTED_EDGE('',*,*,#163,.F.);
#109=ORIENTED_EDGE('',*,*,#125,.F.);
#110=ORIENTED_EDGE('',*,*,#149,.F.);
#111=ORIENTED_EDGE('',*,*,#131,.F.);
#112=ORIENTED_EDGE('',*,*,#162,.F.);
#113=ORIENTED_EDGE('',*,*,#121,.F.);
#114=ORIENTED_EDGE('',*,*,#150,.F.);
#115=ORIENTED_EDGE('',*,*,#127,.F.);
#116=ORIENTED_EDGE('',*,*,#161,.F.);
#117=ORIENTED_EDGE('',*,*,#147,.F.);
#118=ORIENTED_EDGE('',*,*,#151,.F.);
#119=ORIENTED_EDGE('',*,*,#123,.F.);
#120=EDGE_CURVE('',#168,#169,#200,.T.);
#121=EDGE_CURVE('',#169,#170,#201,.F.);
#122=EDGE_CURVE('',#171,#170,#202,.T.);
#123=EDGE_CURVE('',#171,#168,#203,.T.);
#124=EDGE_CURVE('',#172,#173,#204,.T.);
#125=EDGE_CURVE('',#173,#174,#205,.F.);
#126=EDGE_CURVE('',#175,#174,#206,.T.);
#127=EDGE_CURVE('',#175,#172,#207,.T.);
#128=EDGE_CURVE('',#176,#177,#208,.T.);
#129=EDGE_CURVE('',#177,#178,#209,.F.);
#130=EDGE_CURVE('',#179,#178,#210,.T.);
#131=EDGE_CURVE('',#179,#176,#211,.T.);
#132=EDGE_CURVE('',#180,#181,#212,.T.);
#133=EDGE_CURVE('',#182,#180,#213,.T.);
#134=EDGE_CURVE('',#182,#183,#214,.T.);
#135=EDGE_CURVE('',#183,#181,#215,.T.);
#136=EDGE_CURVE('',#180,#184,#216,.T.);
#137=EDGE_CURVE('',#185,#184,#217,.T.);
#138=EDGE_CURVE('',#182,#185,#218,.T.);
#139=EDGE_CURVE('',#186,#184,#219,.T.);
#140=EDGE_CURVE('',#187,#186,#220,.T.);
#141=EDGE_CURVE('',#187,#185,#221,.T.);
#142=EDGE_CURVE('',#186,#181,#222,.T.);
#143=EDGE_CURVE('',#187,#183,#223,.T.);
#144=EDGE_CURVE('',#188,#189,#224,.T.);
#145=EDGE_CURVE('',#189,#190,#225,.T.);
#146=EDGE_CURVE('',#191,#190,#226,.T.);
#147=EDGE_CURVE('',#191,#188,#227,.F.);
#148=EDGE_CURVE('',#190,#177,#16,.F.);
#149=EDGE_CURVE('',#176,#173,#17,.F.);
#150=EDGE_CURVE('',#172,#169,#18,.F.);
#151=EDGE_CURVE('',#168,#191,#19,.F.);
#152=EDGE_CURVE('',#192,#193,#228,.T.);
#153=EDGE_CURVE('',#193,#194,#229,.T.);
#154=EDGE_CURVE('',#194,#195,#230,.T.);
#155=EDGE_CURVE('',#192,#195,#231,.T.);
#156=EDGE_CURVE('',#196,#197,#232,.T.);
#157=EDGE_CURVE('',#198,#196,#233,.T.);
#158=EDGE_CURVE('',#198,#199,#234,.T.);
#159=EDGE_CURVE('',#197,#199,#235,.T.);
#160=EDGE_CURVE('',#178,#189,#20,.T.);
#161=EDGE_CURVE('',#188,#171,#21,.T.);
#162=EDGE_CURVE('',#170,#175,#22,.T.);
#163=EDGE_CURVE('',#174,#179,#23,.T.);
#164=EDGE_CURVE('',#194,#197,#236,.T.);
#165=EDGE_CURVE('',#193,#196,#237,.T.);
#166=EDGE_CURVE('',#195,#199,#238,.T.);
#167=EDGE_CURVE('',#192,#198,#239,.T.);
#168=VERTEX_POINT('',#497);
#169=VERTEX_POINT('',#498);
#170=VERTEX_POINT('',#500);
#171=VERTEX_POINT('',#502);
#172=VERTEX_POINT('',#506);
#173=VERTEX_POINT('',#507);
#174=VERTEX_POINT('',#509);
#175=VERTEX_POINT('',#511);
#176=VERTEX_POINT('',#515);
#177=VERTEX_POINT('',#516);
#178=VERTEX_POINT('',#518);
#179=VERTEX_POINT('',#520);
#180=VERTEX_POINT('',#524);
#181=VERTEX_POINT('',#525);
#182=VERTEX_POINT('',#527);
#183=VERTEX_POINT('',#529);
#184=VERTEX_POINT('',#533);
#185=VERTEX_POINT('',#535);
#186=VERTEX_POINT('',#539);
#187=VERTEX_POINT('',#541);
#188=VERTEX_POINT('',#548);
#189=VERTEX_POINT('',#549);
#190=VERTEX_POINT('',#551);
#191=VERTEX_POINT('',#553);
#192=VERTEX_POINT('',#562);
#193=VERTEX_POINT('',#563);
#194=VERTEX_POINT('',#565);
#195=VERTEX_POINT('',#567);
#196=VERTEX_POINT('',#571);
#197=VERTEX_POINT('',#572);
#198=VERTEX_POINT('',#574);
#199=VERTEX_POINT('',#576);
#200=LINE('',#496,#240);
#201=LINE('',#499,#241);
#202=LINE('',#501,#242);
#203=LINE('',#503,#243);
#204=LINE('',#505,#244);
#205=LINE('',#508,#245);
#206=LINE('',#510,#246);
#207=LINE('',#512,#247);
#208=LINE('',#514,#248);
#209=LINE('',#517,#249);
#210=LINE('',#519,#250);
#211=LINE('',#521,#251);
#212=LINE('',#523,#252);
#213=LINE('',#526,#253);
#214=LINE('',#528,#254);
#215=LINE('',#530,#255);
#216=LINE('',#532,#256);
#217=LINE('',#534,#257);
#218=LINE('',#536,#258);
#219=LINE('',#538,#259);
#220=LINE('',#540,#260);
#221=LINE('',#542,#261);
#222=LINE('',#544,#262);
#223=LINE('',#545,#263);
#224=LINE('',#547,#264);
#225=LINE('',#550,#265);
#226=LINE('',#552,#266);
#227=LINE('',#554,#267);
#228=LINE('',#561,#268);
#229=LINE('',#564,#269);
#230=LINE('',#566,#270);
#231=LINE('',#568,#271);
#232=LINE('',#570,#272);
#233=LINE('',#573,#273);
#234=LINE('',#575,#274);
#235=LINE('',#577,#275);
#236=LINE('',#583,#276);
#237=LINE('',#584,#277);
#238=LINE('',#586,#278);
#239=LINE('',#588,#279);
#240=VECTOR('',#402,1.);
#241=VECTOR('',#403,1.);
#242=VECTOR('',#404,1.);
#243=VECTOR('',#405,1.);
#244=VECTOR('',#408,1.);
#245=VECTOR('',#409,1.);
#246=VECTOR('',#410,1.);
#247=VECTOR('',#411,1.);
#248=VECTOR('',#414,1.);
#249=VECTOR('',#415,1.);
#250=VECTOR('',#416,1.);
#251=VECTOR('',#417,1.);
#252=VECTOR('',#420,1.);
#253=VECTOR('',#421,1.);
#254=VECTOR('',#422,1.);
#255=VECTOR('',#423,1.);
#256=VECTOR('',#426,1.);
#257=VECTOR('',#427,1.);
#258=VECTOR('',#428,1.);
#259=VECTOR('',#431,1.);
#260=VECTOR('',#432,1.);
#261=VECTOR('',#433,1.);
#262=VECTOR('',#436,1.);
#263=VECTOR('',#437,1.);
#264=VECTOR('',#440,1.);
#265=VECTOR('',#441,1.);
#266=VECTOR('',#442,1.);
#267=VECTOR('',#443,1.);
#268=VECTOR('',#456,1.);
#269=VECTOR('',#457,1.);
#270=VECTOR('',#458,1.);
#271=VECTOR('',#459,1.);
#272=VECTOR('',#462,1.);
#273=VECTOR('',#463,1.);
#274=VECTOR('',#464,1.);
#275=VECTOR('',#465,1.);
#276=VECTOR('',#476,1.);
#277=VECTOR('',#477,1.);
#278=VECTOR('',#480,1.);
#279=VECTOR('',#483,1.);
#280=EDGE_LOOP('',(#24,#25,#26,#27));
#281=EDGE_LOOP('',(#28,#29,#30,#31));
#282=EDGE_LOOP('',(#32,#33,#34,#35));
#283=EDGE_LOOP('',(#36,#37,#38,#39));
#284=EDGE_LOOP('',(#40,#41,#42,#43));
#285=EDGE_LOOP('',(#44,#45,#46,#47));
#286=EDGE_LOOP('',(#48,#49,#50,#51));
#287=EDGE_LOOP('',(#52,#53,#54,#55));
#288=EDGE_LOOP('',(#56,#57,#58,#59));
#289=EDGE_LOOP('',(#60,#61,#62,#63,#64,#65,#66,#67));
#290=EDGE_LOOP('',(#68,#69,#70,#71));
#291=EDGE_LOOP('',(#72,#73,#74,#75));
#292=EDGE_LOOP('',(#76,#77,#78,#79));
#293=EDGE_LOOP('',(#80,#81,#82,#83,#84,#85,#86,#87));
#294=EDGE_LOOP('',(#88,#89,#90,#91));
#295=EDGE_LOOP('',(#92,#93,#94,#95));
#296=EDGE_LOOP('',(#96,#97,#98,#99));
#297=EDGE_LOOP('',(#100,#101,#102,#103));
#298=EDGE_LOOP('',(#104,#105,#106,#107));
#299=EDGE_LOOP('',(#108,#109,#110,#111));
#300=EDGE_LOOP('',(#112,#113,#114,#115));
#301=EDGE_LOOP('',(#116,#117,#118,#119));
#302=FACE_BOUND('',#280,.T.);
#303=FACE_BOUND('',#281,.T.);
#304=FACE_BOUND('',#282,.T.);
#305=FACE_BOUND('',#283,.T.);
#306=FACE_BOUND('',#284,.T.);
#307=FACE_BOUND('',#285,.T.);
#308=FACE_BOUND('',#286,.T.);
#309=FACE_BOUND('',#287,.T.);
#310=FACE_BOUND('',#288,.T.);
#311=FACE_BOUND('',#289,.T.);
#312=FACE_BOUND('',#290,.T.);
#313=FACE_BOUND('',#291,.T.);
#314=FACE_BOUND('',#292,.T.);
#315=FACE_BOUND('',#293,.T.);
#316=FACE_BOUND('',#294,.T.);
#317=FACE_BOUND('',#295,.T.);
#318=FACE_BOUND('',#296,.T.);
#319=FACE_BOUND('',#297,.T.);
#320=FACE_BOUND('',#298,.T.);
#321=FACE_BOUND('',#299,.T.);
#322=FACE_BOUND('',#300,.T.);
#323=FACE_BOUND('',#301,.T.);
#324=PLANE('',#371);
#325=PLANE('',#372);
#326=PLANE('',#373);
#327=PLANE('',#374);
#328=PLANE('',#375);
#329=PLANE('',#376);
#330=PLANE('',#377);
#331=PLANE('',#378);
#332=PLANE('',#379);
#333=PLANE('',#384);
#334=PLANE('',#385);
#335=PLANE('',#390);
#336=PLANE('',#391);
#337=PLANE('',#392);
#338=PLANE('',#393);
#339=ADVANCED_FACE('',(#302),#324,.F.);
#340=ADVANCED_FACE('',(#303),#325,.F.);
#341=ADVANCED_FACE('',(#304),#326,.F.);
#342=ADVANCED_FACE('',(#305),#327,.T.);
#343=ADVANCED_FACE('',(#306),#328,.F.);
#344=ADVANCED_FACE('',(#307),#329,.T.);
#345=ADVANCED_FACE('',(#308),#330,.F.);
#346=ADVANCED_FACE('',(#309),#331,.T.);
#347=ADVANCED_FACE('',(#310,#311),#332,.F.);
#348=ADVANCED_FACE('',(#312,#313),#333,.F.);
#349=ADVANCED_FACE('',(#314,#315),#334,.T.);
#350=ADVANCED_FACE('',(#316),#335,.F.);
#351=ADVANCED_FACE('',(#317),#336,.F.);
#352=ADVANCED_FACE('',(#318),#337,.T.);
#353=ADVANCED_FACE('',(#319),#338,.F.);
#354=ADVANCED_FACE('',(#320),#12,.T.);
#355=ADVANCED_FACE('',(#321),#13,.T.);
#356=ADVANCED_FACE('',(#322),#14,.T.);
#357=ADVANCED_FACE('',(#323),#15,.T.);
#358=CLOSED_SHELL('',(#339,#340,#341,#342,#343,#344,#345,#346,#347,#348,
#349,#350,#351,#352,#353,#354,#355,#356,#357));
#359=STYLED_ITEM('',(#360),#367);
#360=PRESENTATION_STYLE_ASSIGNMENT((#361));
#361=SURFACE_STYLE_USAGE(.BOTH.,#362);
#362=SURFACE_SIDE_STYLE('',(#363));
#363=SURFACE_STYLE_FILL_AREA(#364);
#364=FILL_AREA_STYLE('',(#365));
#365=FILL_AREA_STYLE_COLOUR('',#366);
#366=COLOUR_RGB('',0.231372549019608,0.380392156862745,0.705882352941177);
#367=MANIFOLD_SOLID_BREP('bottom',#358);
#368=SHAPE_DEFINITION_REPRESENTATION(#600,#369);
#369=SHAPE_REPRESENTATION('bottom',(#370),#595);
#370=AXIS2_PLACEMENT_3D('',#494,#398,#399);
#371=AXIS2_PLACEMENT_3D('',#495,#400,#401);
#372=AXIS2_PLACEMENT_3D('',#504,#406,#407);
#373=AXIS2_PLACEMENT_3D('',#513,#412,#413);
#374=AXIS2_PLACEMENT_3D('',#522,#418,#419);
#375=AXIS2_PLACEMENT_3D('',#531,#424,#425);
#376=AXIS2_PLACEMENT_3D('',#537,#429,#430);
#377=AXIS2_PLACEMENT_3D('',#543,#434,#435);
#378=AXIS2_PLACEMENT_3D('',#546,#438,#439);
#379=AXIS2_PLACEMENT_3D('',#555,#444,#445);
#380=AXIS2_PLACEMENT_3D('',#556,#446,#447);
#381=AXIS2_PLACEMENT_3D('',#557,#448,#449);
#382=AXIS2_PLACEMENT_3D('',#558,#450,#451);
#383=AXIS2_PLACEMENT_3D('',#559,#452,#453);
#384=AXIS2_PLACEMENT_3D('',#560,#454,#455);
#385=AXIS2_PLACEMENT_3D('',#569,#460,#461);
#386=AXIS2_PLACEMENT_3D('',#578,#466,#467);
#387=AXIS2_PLACEMENT_3D('',#579,#468,#469);
#388=AXIS2_PLACEMENT_3D('',#580,#470,#471);
#389=AXIS2_PLACEMENT_3D('',#581,#472,#473);
#390=AXIS2_PLACEMENT_3D('',#582,#474,#475);
#391=AXIS2_PLACEMENT_3D('',#585,#478,#479);
#392=AXIS2_PLACEMENT_3D('',#587,#481,#482);
#393=AXIS2_PLACEMENT_3D('',#589,#484,#485);
#394=AXIS2_PLACEMENT_3D('',#590,#486,#487);
#395=AXIS2_PLACEMENT_3D('',#591,#488,#489);
#396=AXIS2_PLACEMENT_3D('',#592,#490,#491);
#397=AXIS2_PLACEMENT_3D('',#593,#492,#493);
#398=DIRECTION('',(0.,0.,1.));
#399=DIRECTION('',(1.,0.,0.));
#400=DIRECTION('',(0.,-1.,0.));
#401=DIRECTION('',(0.,0.,-1.));
#402=DIRECTION('',(1.,0.,0.));
#403=DIRECTION('',(0.,0.,1.));
#404=DIRECTION('',(1.,0.,0.));
#405=DIRECTION('',(0.,0.,1.));
#406=DIRECTION('',(-1.,0.,0.));
#407=DIRECTION('',(0.,0.,1.));
#408=DIRECTION('',(0.,-1.,0.));
#409=DIRECTION('',(0.,0.,1.));
#410=DIRECTION('',(0.,-1.,0.));
#411=DIRECTION('',(0.,0.,1.));
#412=DIRECTION('',(0.,1.,0.));
#413=DIRECTION('',(0.,0.,1.));
#414=DIRECTION('',(-1.,0.,0.));
#415=DIRECTION('',(0.,0.,1.));
#416=DIRECTION('',(-1.,0.,0.));
#417=DIRECTION('',(0.,0.,1.));
#418=DIRECTION('',(-1.,0.,0.));
#419=DIRECTION('',(0.,0.,1.));
#420=DIRECTION('',(0.,-1.,0.));
#421=DIRECTION('',(0.,0.,1.));
#422=DIRECTION('',(0.,-1.,0.));
#423=DIRECTION('',(0.,0.,1.));
#424=DIRECTION('',(0.,1.,0.));
#425=DIRECTION('',(0.,0.,1.));
#426=DIRECTION('',(-1.,0.,0.));
#427=DIRECTION('',(0.,0.,1.));
#428=DIRECTION('',(-1.,0.,0.));
#429=DIRECTION('',(1.,0.,0.));
#430=DIRECTION('',(0.,0.,-1.));
#431=DIRECTION('',(0.,1.,0.));
#432=DIRECTION('',(0.,0.,1.));
#433=DIRECTION('',(0.,1.,0.));
#434=DIRECTION('',(0.,-1.,0.));
#435=DIRECTION('',(0.,0.,-1.));
#436=DIRECTION('',(1.,0.,0.));
#437=DIRECTION('',(1.,0.,0.));
#438=DIRECTION('',(-1.,0.,0.));
#439=DIRECTION('',(0.,0.,1.));
#440=DIRECTION('',(0.,-1.,0.));
#441=DIRECTION('',(0.,0.,1.));
#442=DIRECTION('',(0.,-1.,0.));
#443=DIRECTION('',(0.,0.,1.));
#444=DIRECTION('',(0.,0.,-1.));
#445=DIRECTION('',(1.,0.,0.));
#446=DIRECTION('',(0.,0.,-1.));
#447=DIRECTION('',(-1.,0.,0.));
#448=DIRECTION('',(0.,0.,-1.));
#449=DIRECTION('',(-1.,0.,0.));
#450=DIRECTION('',(0.,0.,-1.));
#451=DIRECTION('',(-1.,0.,0.));
#452=DIRECTION('',(0.,0.,-1.));
#453=DIRECTION('',(-1.,0.,0.));
#454=DIRECTION('',(0.,0.,-1.));
#455=DIRECTION('',(1.,0.,0.));
#456=DIRECTION('',(1.,-7.91839997865009E-17,0.));
#457=DIRECTION('',(0.,-1.,0.));
#458=DIRECTION('',(-1.,1.58367999573001E-16,0.));
#459=DIRECTION('',(0.,-1.,0.));
#460=DIRECTION('',(0.,0.,-1.));
#461=DIRECTION('',(1.,0.,0.));
#462=DIRECTION('',(0.,-1.,0.));
#463=DIRECTION('',(1.,-7.91839997865009E-17,0.));
#464=DIRECTION('',(0.,-1.,0.));
#465=DIRECTION('',(-1.,1.58367999573001E-16,0.));
#466=DIRECTION('',(0.,0.,-1.));
#467=DIRECTION('',(-1.,0.,0.));
#468=DIRECTION('',(0.,0.,-1.));
#469=DIRECTION('',(-1.,0.,0.));
#470=DIRECTION('',(0.,0.,-1.));
#471=DIRECTION('',(-1.,0.,0.));
#472=DIRECTION('',(0.,0.,-1.));
#473=DIRECTION('',(-1.,0.,0.));
#474=DIRECTION('',(1.,0.,0.));
#475=DIRECTION('',(0.,0.,-1.));
#476=DIRECTION('',(0.,0.,-1.));
#477=DIRECTION('',(0.,0.,-1.));
#478=DIRECTION('',(-1.58367999573001E-16,-1.,0.));
#479=DIRECTION('',(1.,-1.58367999573001E-16,0.));
#480=DIRECTION('',(0.,0.,-1.));
#481=DIRECTION('',(1.,0.,0.));
#482=DIRECTION('',(0.,0.,-1.));
#483=DIRECTION('',(0.,0.,-1.));
#484=DIRECTION('',(7.91839997865009E-17,1.,0.));
#485=DIRECTION('',(-1.,7.91839997865009E-17,0.));
#486=DIRECTION('',(0.,0.,-1.));
#487=DIRECTION('',(-1.,0.,0.));
#488=DIRECTION('',(0.,0.,1.));
#489=DIRECTION('',(1.,0.,0.));
#490=DIRECTION('',(0.,0.,1.));
#491=DIRECTION('',(1.,0.,0.));
#492=DIRECTION('',(0.,0.,-1.));
#493=DIRECTION('',(-1.,0.,0.));
#494=CARTESIAN_POINT('',(0.,0.,0.));
#495=CARTESIAN_POINT('',(0.1143,-0.0127,-0.00254));
#496=CARTESIAN_POINT('',(0.1143,-0.0127,0.00254));
#497=CARTESIAN_POINT('',(0.07112,-0.0127,0.00254));
#498=CARTESIAN_POINT('',(0.157480000033038,-0.0127,0.00254));
#499=CARTESIAN_POINT('',(0.157480000033038,-0.0127,-0.00254));
#500=CARTESIAN_POINT('',(0.157480000033038,-0.0127,-0.00762));
#501=CARTESIAN_POINT('',(0.1143,-0.0127,-0.00762));
#502=CARTESIAN_POINT('',(0.07112,-0.0127,-0.00762));
#503=CARTESIAN_POINT('',(0.07112,-0.0127,0.00254));
#504=CARTESIAN_POINT('',(0.162560000033038,-0.0139699999999988,-0.00254));
#505=CARTESIAN_POINT('',(0.162560000033038,-0.0139699999999988,0.00254));
#506=CARTESIAN_POINT('',(0.162560000033038,-0.01778,0.00254));
#507=CARTESIAN_POINT('',(0.162560000033038,-0.195579999999998,0.00254));
#508=CARTESIAN_POINT('',(0.162560000033038,-0.195579999999998,-0.00254));
#509=CARTESIAN_POINT('',(0.162560000033038,-0.195579999999998,-0.00762));
#510=CARTESIAN_POINT('',(0.162560000033038,-0.0139699999999988,-0.00762));
#511=CARTESIAN_POINT('',(0.162560000033038,-0.01778,-0.00762));
#512=CARTESIAN_POINT('',(0.162560000033038,-0.01778,-0.00254));
#513=CARTESIAN_POINT('',(0.161290000016519,-0.200659999999998,-0.00254));
#514=CARTESIAN_POINT('',(0.161290000016519,-0.200659999999998,0.00254));
#515=CARTESIAN_POINT('',(0.157480000033038,-0.200659999999998,0.00254));
#516=CARTESIAN_POINT('',(0.07112,-0.200659999999998,0.00254));
#517=CARTESIAN_POINT('',(0.07112,-0.200659999999998,-0.00762));
#518=CARTESIAN_POINT('',(0.07112,-0.200659999999998,-0.00762));
#519=CARTESIAN_POINT('',(0.161290000016519,-0.200659999999998,-0.00762));
#520=CARTESIAN_POINT('',(0.157480000033038,-0.200659999999998,-0.00762));
#521=CARTESIAN_POINT('',(0.157480000033038,-0.200659999999998,-0.00254));
#522=CARTESIAN_POINT('',(0.16002,-0.195394012999997,-0.00254));
#523=CARTESIAN_POINT('',(0.16002,-0.195394012999997,0.00254));
#524=CARTESIAN_POINT('',(0.16002,-0.01524,0.00254));
#525=CARTESIAN_POINT('',(0.16002,-0.198119999999998,0.00254));
#526=CARTESIAN_POINT('',(0.16002,-0.01524,-0.00254));
#527=CARTESIAN_POINT('',(0.16002,-0.01524,-0.00254));
#528=CARTESIAN_POINT('',(0.16002,-0.195394012999997,-0.00254));
#529=CARTESIAN_POINT('',(0.16002,-0.198119999999998,-0.00254));
#530=CARTESIAN_POINT('',(0.16002,-0.198119999999998,-0.00254));
#531=CARTESIAN_POINT('',(0.15875,-0.01524,-0.00254));
#532=CARTESIAN_POINT('',(0.15875,-0.01524,0.00254));
#533=CARTESIAN_POINT('',(0.06858,-0.01524,0.00254));
#534=CARTESIAN_POINT('',(0.06858,-0.01524,-0.00254));
#535=CARTESIAN_POINT('',(0.06858,-0.01524,-0.00254));
#536=CARTESIAN_POINT('',(0.15875,-0.01524,-0.00254));
#537=CARTESIAN_POINT('',(0.06858,-0.0165099999999988,-0.00254));
#538=CARTESIAN_POINT('',(0.06858,-0.0165099999999988,0.00254));
#539=CARTESIAN_POINT('',(0.06858,-0.198119999999998,0.00254));
#540=CARTESIAN_POINT('',(0.06858,-0.198119999999998,-0.00254));
#541=CARTESIAN_POINT('',(0.06858,-0.198119999999998,-0.00254));
#542=CARTESIAN_POINT('',(0.06858,-0.0165099999999988,-0.00254));
#543=CARTESIAN_POINT('',(0.06985,-0.198119999999998,-0.00254));
#544=CARTESIAN_POINT('',(0.06985,-0.198119999999998,0.00254));
#545=CARTESIAN_POINT('',(0.06985,-0.198119999999998,-0.00254));
#546=CARTESIAN_POINT('',(0.06604,-0.198119999999998,-0.00254));
#547=CARTESIAN_POINT('',(0.06604,-0.198119999999998,-0.00762));
#548=CARTESIAN_POINT('',(0.06604,-0.01778,-0.00762));
#549=CARTESIAN_POINT('',(0.06604,-0.195579999999998,-0.00762));
#550=CARTESIAN_POINT('',(0.06604,-0.195579999999998,0.00254));
#551=CARTESIAN_POINT('',(0.06604,-0.195579999999998,0.00254));
#552=CARTESIAN_POINT('',(0.06604,-0.198119999999998,0.00254));
#553=CARTESIAN_POINT('',(0.06604,-0.01778,0.00254));
#554=CARTESIAN_POINT('',(0.06604,-0.01778,-0.00762));
#555=CARTESIAN_POINT('',(0.114314543680278,-0.106662406920636,0.00254));
#556=CARTESIAN_POINT('',(0.07112,-0.195579999999998,0.00254));
#557=CARTESIAN_POINT('',(0.157480000033038,-0.195579999999998,0.00254));
#558=CARTESIAN_POINT('',(0.157480000033038,-0.01778,0.00254));
#559=CARTESIAN_POINT('',(0.07112,-0.01778,0.00254));
#560=CARTESIAN_POINT('',(0.114300000016519,-0.106679999999998,-0.00254));
#561=CARTESIAN_POINT('',(0.114935000016519,-0.0190499999999976,-0.00254));
#562=CARTESIAN_POINT('',(0.07112,-0.0190499999999976,-0.00254));
#563=CARTESIAN_POINT('',(0.158750000033038,-0.0190499999999976,-0.00254));
#564=CARTESIAN_POINT('',(0.158750000033038,-0.0349249999999977,-0.00254));
#565=CARTESIAN_POINT('',(0.158750000033038,-0.0507999999999977,-0.00254));
#566=CARTESIAN_POINT('',(0.114935000016519,-0.0507999999999977,-0.00254));
#567=CARTESIAN_POINT('',(0.07112,-0.0507999999999977,-0.00254));
#568=CARTESIAN_POINT('',(0.07112,-0.0349249999999977,-0.00254));
#569=CARTESIAN_POINT('',(0.114300000016519,-0.106679999999998,-0.00762));
#570=CARTESIAN_POINT('',(0.158750000033038,-0.0349249999999977,-0.00762));
#571=CARTESIAN_POINT('',(0.158750000033038,-0.0190499999999976,-0.00762));
#572=CARTESIAN_POINT('',(0.158750000033038,-0.0507999999999977,-0.00762));
#573=CARTESIAN_POINT('',(0.114935000016519,-0.0190499999999976,-0.00762));
#574=CARTESIAN_POINT('',(0.07112,-0.0190499999999976,-0.00762));
#575=CARTESIAN_POINT('',(0.07112,-0.0349249999999977,-0.00762));
#576=CARTESIAN_POINT('',(0.07112,-0.0507999999999977,-0.00762));
#577=CARTESIAN_POINT('',(0.114935000016519,-0.0507999999999977,-0.00762));
#578=CARTESIAN_POINT('',(0.07112,-0.195579999999998,-0.00762));
#579=CARTESIAN_POINT('',(0.07112,-0.01778,-0.00762));
#580=CARTESIAN_POINT('',(0.157480000033038,-0.01778,-0.00762));
#581=CARTESIAN_POINT('',(0.157480000033038,-0.195579999999998,-0.00762));
#582=CARTESIAN_POINT('',(0.158750000033038,-0.0349249999999977,-0.00254));
#583=CARTESIAN_POINT('',(0.158750000033038,-0.0507999999999977,-0.00254));
#584=CARTESIAN_POINT('',(0.158750000033038,-0.0190499999999976,-0.00254));
#585=CARTESIAN_POINT('',(0.114935000016519,-0.0507999999999977,-0.00254));
#586=CARTESIAN_POINT('',(0.07112,-0.0507999999999977,-0.00254));
#587=CARTESIAN_POINT('',(0.07112,-0.0349249999999977,-0.00254));
#588=CARTESIAN_POINT('',(0.07112,-0.0190499999999976,-0.00254));
#589=CARTESIAN_POINT('',(0.114935000016519,-0.0190499999999976,-0.00254));
#590=CARTESIAN_POINT('',(0.07112,-0.195579999999998,-0.00254));
#591=CARTESIAN_POINT('',(0.157480000033038,-0.195579999999998,-0.00254));
#592=CARTESIAN_POINT('',(0.157480000033038,-0.01778,-0.00254));
#593=CARTESIAN_POINT('',(0.07112,-0.01778,-0.00254));
#594=MECHANICAL_DESIGN_GEOMETRIC_PRESENTATION_REPRESENTATION('',(#359),
#595);
#595=(
GEOMETRIC_REPRESENTATION_CONTEXT(3)
GLOBAL_UNCERTAINTY_ASSIGNED_CONTEXT((#596))
GLOBAL_UNIT_ASSIGNED_CONTEXT((#599,#598,#597))
REPRESENTATION_CONTEXT('bottom','TOP_LEVEL_ASSEMBLY_PART')
);
#596=UNCERTAINTY_MEASURE_WITH_UNIT(LENGTH_MEASURE(1.E-8),#599,
'DISTANCE_ACCURACY_VALUE','Maximum Tolerance applied to model');
#597=(
NAMED_UNIT(*)
SI_UNIT($,.STERADIAN.)
SOLID_ANGLE_UNIT()
);
#598=(
NAMED_UNIT(*)
PLANE_ANGLE_UNIT()
SI_UNIT($,.RADIAN.)
);
#599=(
LENGTH_UNIT()
NAMED_UNIT(*)
SI_UNIT($,.METRE.)
);
#600=PRODUCT_DEFINITION_SHAPE('','',#601);
#601=PRODUCT_DEFINITION('','',#603,#602);
#602=PRODUCT_DEFINITION_CONTEXT('',#609,'design');
#603=PRODUCT_DEFINITION_FORMATION_WITH_SPECIFIED_SOURCE('','',#605,
 .NOT_KNOWN.);
#604=PRODUCT_RELATED_PRODUCT_CATEGORY('','',(#605));
#605=PRODUCT('bottom','bottom','bottom',(#607));
#606=PRODUCT_CATEGORY('','');
#607=PRODUCT_CONTEXT('',#609,'mechanical');
#608=APPLICATION_PROTOCOL_DEFINITION('international standard',
'ap242_managed_model_based_3d_engineering',2011,#609);
#609=APPLICATION_CONTEXT('managed model based 3d engineering');
ENDSEC;
END-ISO-10303-21;
